0
SECTION
2
HEADER
9
$ACADVER
1
AC1009
9
$HANDSEED
5
138
9
$PDMODE
70
3
9
$PDSIZE
40
-3
0
ENDSEC
0
SECTION
2
TABLES
0
TABLE
2
VPORT
70
2
0
VPORT
2
*Active
70
0
10
0
20
0
11
1
21
1
12
-1
22
1
13
0
23
0
14
0.5
24
0.5
15
10
25
10
16
0
26
0
36
1
17
0
27
0
37
0
40
1
41
1
42
1
43
0
44
0
50
0
51
0
71
0
72
1000
73
1
74
3
75
0
76
0
77
0
78
0
0
ENDTAB
0
TABLE
2
LTYPE
70
1
0
LTYPE
2
Continuous
70
0
3
Solid line
72
65
73
0
40
0
0
LTYPE
2
ByLayer
70
0
3

72
65
73
0
40
0
0
LTYPE
2
ByBlock
70
0
3

72
65
73
0
40
0
0
ENDTAB
0
TABLE
2
LAYER
70
1
0
LAYER
2
Leica_3DDisto_ID
70
0
62
1
6
Continuous
0
LAYER
2
Leica_3DDisto_3D
70
0
62
5
6
Continuous
0
LAYER
2
Leica_3DDisto_point_entity
70
0
62
6
6
Continuous
0
LAYER
2
0
70
0
62
7
6
Continuous
0
ENDTAB
0
TABLE
2
STYLE
70
1
0
STYLE
2
Standard
3
simplex
70
0
71
0
40
0
41
1
42
0
50
0
0
ENDTAB
0
TABLE
2
VIEW
70
1
0
ENDTAB
0
TABLE
2
UCS
0
ENDTAB
0
TABLE
2
APPID
70
1
0
APPID
2
ACAD
70
0
0
ENDTAB
0
TABLE
2
DIMSTYLE
70
2
0
DIMSTYLE
2
Standard
70
0
3

4

5

6

7

40
1
41
1
42
1
43
1
44
0
45
0
46
0
47
0
48
0
140
2.5
141
2.5
142
0
143
0
144
1
145
0
146
1
147
0
71
0
72
1000
73
1
74
3
75
0
76
0
77
0
78
0
170
0
171
3
172
1
173
0
174
0
175
0
176
0
177
0
178
0
0
ENDTAB
0
TABLE
2
BLOCK_RECORD
70
1
0
BLOCK_RECORD
2
*Model_Space
0
BLOCK_RECORD
2
*Paper_Space
0
ENDTAB
0
ENDSEC
0
SECTION
2
BLOCKS
0
ENDSEC
0
SECTION
2
ENTITIES
0
POINT
5
be
100
AcDbEntity
8
Leica_3DDisto_point_entity
62
6
6
ByLayer
100
AcDbPoint
10
10000
20
10000
30
10000
39
0
210
0
220
0
230
1
0
POINT
5
bf
100
AcDbEntity
8
Leica_3DDisto_point_entity
62
6
6
ByLayer
100
AcDbPoint
10
13083.44
20
10000
30
10000.94
39
0
210
0
220
0
230
1
0
POINT
5
c0
100
AcDbEntity
8
Leica_3DDisto_point_entity
62
6
6
ByLayer
100
AcDbPoint
10
13086.25
20
9997.715
30
10487.43
39
0
210
0
220
0
230
1
0
POINT
5
c1
100
AcDbEntity
8
Leica_3DDisto_point_entity
62
6
6
ByLayer
100
AcDbPoint
10
10006.83
20
9994.274
30
10469.09
39
0
210
0
220
0
230
1
0
POINT
5
c2
100
AcDbEntity
8
Leica_3DDisto_point_entity
62
6
6
ByLayer
100
AcDbPoint
10
9998.582
20
10034.08
30
9996.748
39
0
210
0
220
0
230
1
0
POINT
5
c3
100
AcDbEntity
8
Leica_3DDisto_point_entity
62
6
6
ByLayer
100
AcDbPoint
10
10347.04
20
10034.47
30
9994.789
39
0
210
0
220
0
230
1
0
POINT
5
c4
100
AcDbEntity
8
Leica_3DDisto_point_entity
62
6
6
ByLayer
100
AcDbPoint
10
10192.94
20
10036.3
30
9856.302
39
0
210
0
220
0
230
1
0
POINT
5
c5
100
AcDbEntity
8
Leica_3DDisto_point_entity
62
6
6
ByLayer
100
AcDbPoint
10
10000.51
20
10034.89
30
9852.359
39
0
210
0
220
0
230
1
0
POINT
5
c6
100
AcDbEntity
8
Leica_3DDisto_point_entity
62
6
6
ByLayer
100
AcDbPoint
10
10009.93
20
10063.38
30
9850.397
39
0
210
0
220
0
230
1
0
POINT
5
c7
100
AcDbEntity
8
Leica_3DDisto_point_entity
62
6
6
ByLayer
100
AcDbPoint
10
10009.61
20
10063.69
30
9850.64
39
0
210
0
220
0
230
1
0
POINT
5
c8
100
AcDbEntity
8
Leica_3DDisto_point_entity
62
6
6
ByLayer
100
AcDbPoint
10
10165.89
20
10071.47
30
9854.843
39
0
210
0
220
0
230
1
0
POINT
5
c9
100
AcDbEntity
8
Leica_3DDisto_point_entity
62
6
6
ByLayer
100
AcDbPoint
10
10163.54
20
10215.36
30
9850.324
39
0
210
0
220
0
230
1
0
POINT
5
ca
100
AcDbEntity
8
Leica_3DDisto_point_entity
62
6
6
ByLayer
100
AcDbPoint
10
10200.52
20
10242.21
30
9854.335
39
0
210
0
220
0
230
1
0
POINT
5
cb
100
AcDbEntity
8
Leica_3DDisto_point_entity
62
6
6
ByLayer
100
AcDbPoint
10
10347.09
20
10243.72
30
9994.422
39
0
210
0
220
0
230
1
0
POINT
5
cc
100
AcDbEntity
8
Leica_3DDisto_point_entity
62
6
6
ByLayer
100
AcDbPoint
10
10320.03
20
10278.05
30
9996.556
39
0
210
0
220
0
230
1
0
POINT
5
cd
100
AcDbEntity
8
Leica_3DDisto_point_entity
62
6
6
ByLayer
100
AcDbPoint
10
11238.71
20
10277.7
30
9994.204
39
0
210
0
220
0
230
1
0
POINT
5
ce
100
AcDbEntity
8
Leica_3DDisto_point_entity
62
6
6
ByLayer
100
AcDbPoint
10
11238.5
20
11474.36
30
9995.237
39
0
210
0
220
0
230
1
0
POINT
5
cf
100
AcDbEntity
8
Leica_3DDisto_point_entity
62
6
6
ByLayer
100
AcDbPoint
10
9590.881
20
11468.38
30
10000.96
39
0
210
0
220
0
230
1
0
POINT
5
d0
100
AcDbEntity
8
Leica_3DDisto_point_entity
62
6
6
ByLayer
100
AcDbPoint
10
9504.558
20
11721.72
30
9996.161
39
0
210
0
220
0
230
1
0
POINT
5
d1
100
AcDbEntity
8
Leica_3DDisto_point_entity
62
6
6
ByLayer
100
AcDbPoint
10
13086.47
20
11727.86
30
9993.276
39
0
210
0
220
0
230
1
0
POINT
5
d2
100
AcDbEntity
8
Leica_3DDisto_point_entity
62
6
6
ByLayer
100
AcDbPoint
10
13083.07
20
10308
30
9996.505
39
0
210
0
220
0
230
1
0
POINT
5
d3
100
AcDbEntity
8
Leica_3DDisto_point_entity
62
6
6
ByLayer
100
AcDbPoint
10
11519.71
20
10288.86
30
9997.039
39
0
210
0
220
0
230
1
0
POINT
5
d4
100
AcDbEntity
8
Leica_3DDisto_point_entity
62
6
6
ByLayer
100
AcDbPoint
10
11521.61
20
11723.91
30
9994.333
39
0
210
0
220
0
230
1
0
POINT
5
d5
100
AcDbEntity
8
Leica_3DDisto_point_entity
62
6
6
ByLayer
100
AcDbPoint
10
10177.01
20
11725.18
30
9993.979
39
0
210
0
220
0
230
1
0
POINT
5
d6
100
AcDbEntity
8
Leica_3DDisto_point_entity
62
6
6
ByLayer
100
AcDbPoint
10
10194.03
20
11493.48
30
9997.991
39
0
210
0
220
0
230
1
0
POINT
5
d7
100
AcDbEntity
8
Leica_3DDisto_point_entity
62
6
6
ByLayer
100
AcDbPoint
10
9883.802
20
11495.9
30
9995.871
39
0
210
0
220
0
230
1
0
POINT
5
d8
100
AcDbEntity
8
Leica_3DDisto_point_entity
62
6
6
ByLayer
100
AcDbPoint
10
9981.388
20
11505.4
30
9862.225
39
0
210
0
220
0
230
1
0
POINT
5
d9
100
AcDbEntity
8
Leica_3DDisto_point_entity
62
6
6
ByLayer
100
AcDbPoint
10
10190.13
20
11518.13
30
9860.297
39
0
210
0
220
0
230
1
0
POINT
5
da
100
AcDbEntity
8
Leica_3DDisto_point_entity
62
6
6
ByLayer
100
AcDbPoint
10
10174.46
20
11719.28
30
9864.144
39
0
210
0
220
0
230
1
0
POINT
5
db
100
AcDbEntity
8
Leica_3DDisto_point_entity
62
6
6
ByLayer
100
AcDbPoint
10
10145.39
20
11718.42
30
9861.573
39
0
210
0
220
0
230
1
0
POINT
5
dc
100
AcDbEntity
8
Leica_3DDisto_point_entity
62
6
6
ByLayer
100
AcDbPoint
10
10162.75
20
11541.44
30
9855.261
39
0
210
0
220
0
230
1
0
POINT
5
dd
100
AcDbEntity
8
Leica_3DDisto_point_entity
62
6
6
ByLayer
100
AcDbPoint
10
10002.36
20
11544.07
30
9860.142
39
0
210
0
220
0
230
1
0
POINT
5
de
100
AcDbEntity
8
Leica_3DDisto_point_entity
62
6
6
ByLayer
100
AcDbPoint
10
9983.029
20
11566.06
30
8421.465
39
0
210
0
220
0
230
1
0
POINT
5
df
100
AcDbEntity
8
Leica_3DDisto_point_entity
62
6
6
ByLayer
100
AcDbPoint
10
9982.187
20
11567.53
30
8421.469
39
0
210
0
220
0
230
1
0
POINT
5
e0
100
AcDbEntity
8
Leica_3DDisto_point_entity
62
6
6
ByLayer
100
AcDbPoint
10
10157.49
20
11543.3
30
8348.445
39
0
210
0
220
0
230
1
0
POINT
5
e1
100
AcDbEntity
8
Leica_3DDisto_point_entity
62
6
6
ByLayer
100
AcDbPoint
10
10161.24
20
10219.37
30
8338.008
39
0
210
0
220
0
230
1
0
POINT
5
e2
100
AcDbEntity
8
Leica_3DDisto_point_entity
62
6
6
ByLayer
100
AcDbPoint
10
10161.62
20
10190.52
30
8335.806
39
0
210
0
220
0
230
1
0
POINT
5
e3
100
AcDbEntity
8
Leica_3DDisto_point_entity
62
6
6
ByLayer
100
AcDbPoint
10
10157.92
20
10187.93
30
7988.116
39
0
210
0
220
0
230
1
0
POINT
5
e4
100
AcDbEntity
8
Leica_3DDisto_point_entity
62
6
6
ByLayer
100
AcDbPoint
10
10893.55
20
10202.04
30
7619.734
39
0
210
0
220
0
230
1
0
POINT
5
e5
100
AcDbEntity
8
Leica_3DDisto_point_entity
62
6
6
ByLayer
100
AcDbPoint
10
11586.47
20
10204.47
30
7621.22
39
0
210
0
220
0
230
1
0
POINT
5
e6
100
AcDbEntity
8
Leica_3DDisto_point_entity
62
6
6
ByLayer
100
AcDbPoint
10
11583.7
20
10214.99
30
7635.999
39
0
210
0
220
0
230
1
0
POINT
5
e7
100
AcDbEntity
8
Leica_3DDisto_point_entity
62
6
6
ByLayer
100
AcDbPoint
10
11596.63
20
10301.62
30
7617.639
39
0
210
0
220
0
230
1
0
POINT
5
e8
100
AcDbEntity
8
Leica_3DDisto_point_entity
62
6
6
ByLayer
100
AcDbPoint
10
11586.53
20
10303.69
30
7642.636
39
0
210
0
220
0
230
1
0
POINT
5
e9
100
AcDbEntity
8
Leica_3DDisto_point_entity
62
6
6
ByLayer
100
AcDbPoint
10
10128.28
20
10286.69
30
8358.353
39
0
210
0
220
0
230
1
0
POINT
5
ea
100
AcDbEntity
8
Leica_3DDisto_point_entity
62
6
6
ByLayer
100
AcDbPoint
10
10137.34
20
11722.32
30
8348.252
39
0
210
0
220
0
230
1
0
POINT
5
eb
100
AcDbEntity
8
Leica_3DDisto_point_entity
62
6
6
ByLayer
100
AcDbPoint
10
10154.79
20
11572.15
30
8348.889
39
0
210
0
220
0
230
1
0
POINT
5
ec
100
AcDbEntity
8
Leica_3DDisto_point_entity
62
6
6
ByLayer
100
AcDbPoint
10
11601.47
20
11594.04
30
7616.352
39
0
210
0
220
0
230
1
0
POINT
5
ed
100
AcDbEntity
8
Leica_3DDisto_point_entity
62
6
6
ByLayer
100
AcDbPoint
10
11602.84
20
11488.77
30
7616.501
39
0
210
0
220
0
230
1
0
POINT
5
ee
100
AcDbEntity
8
Leica_3DDisto_point_entity
62
6
6
ByLayer
100
AcDbPoint
10
9905.052
20
11473.58
30
8466.618
39
0
210
0
220
0
230
1
0
POINT
5
ef
100
AcDbEntity
8
Leica_3DDisto_point_entity
62
6
6
ByLayer
100
AcDbPoint
10
7858.808
20
11680.94
30
7614.747
39
0
210
0
220
0
230
1
0
POINT
5
f0
100
AcDbEntity
8
Leica_3DDisto_point_entity
62
6
6
ByLayer
100
AcDbPoint
10
7834.465
20
11555.24
30
7621.84
39
0
210
0
220
0
230
1
0
POINT
5
f1
100
AcDbEntity
8
Leica_3DDisto_point_entity
62
6
6
ByLayer
100
AcDbPoint
10
7766.074
20
11546.04
30
7617.935
39
0
210
0
220
0
230
1
0
POINT
5
f2
100
AcDbEntity
8
Leica_3DDisto_point_entity
62
6
6
ByLayer
100
AcDbPoint
10
7789.597
20
11518.34
30
9996.746
39
0
210
0
220
0
230
1
0
POINT
5
f3
100
AcDbEntity
8
Leica_3DDisto_point_entity
62
6
6
ByLayer
100
AcDbPoint
10
7832.611
20
11542.12
30
9997.169
39
0
210
0
220
0
230
1
0
POINT
5
f4
100
AcDbEntity
8
Leica_3DDisto_point_entity
62
6
6
ByLayer
100
AcDbPoint
10
7832.009
20
11709.33
30
9996.354
39
0
210
0
220
0
230
1
0
POINT
5
f5
100
AcDbEntity
8
Leica_3DDisto_point_entity
62
6
6
ByLayer
100
AcDbPoint
10
7523.863
20
11461.68
30
9997.28
39
0
210
0
220
0
230
1
0
POINT
5
f6
100
AcDbEntity
8
Leica_3DDisto_point_entity
62
6
6
ByLayer
100
AcDbPoint
10
13069.37
20
11713.4
30
7627.573
39
0
210
0
220
0
230
1
0
POINT
5
f7
100
AcDbEntity
8
Leica_3DDisto_point_entity
62
6
6
ByLayer
100
AcDbPoint
10
13067.64
20
9992.263
30
7619.265
39
0
210
0
220
0
230
1
0
POINT
5
f8
100
AcDbEntity
8
Leica_3DDisto_point_entity
62
6
6
ByLayer
100
AcDbPoint
10
10008.65
20
10073.98
30
7624.19
39
0
210
0
220
0
230
1
0
POINT
5
f9
100
AcDbEntity
8
Leica_3DDisto_point_entity
62
6
6
ByLayer
100
AcDbPoint
10
10158.97
20
10076.52
30
7620.631
39
0
210
0
220
0
230
1
0
POINT
5
fa
100
AcDbEntity
8
Leica_3DDisto_point_entity
62
6
6
ByLayer
100
AcDbPoint
10
10157.17
20
10226.73
30
7621.88
39
0
210
0
220
0
230
1
0
LINE
100
AcDbEntity
8
Leica_3DDisto_3D
62
256
6
ByLayer
5
76
100
AcDbLine
10
10000
20
10000
30
10000
11
13083.44
21
10000
31
10000.94
39
0
210
0
220
0
230
1
0
LINE
100
AcDbEntity
8
Leica_3DDisto_3D
62
256
6
ByLayer
5
77
100
AcDbLine
10
13083.44
20
10000
30
10000.94
11
13086.25
21
9997.715
31
10487.43
39
0
210
0
220
0
230
1
0
LINE
100
AcDbEntity
8
Leica_3DDisto_3D
62
256
6
ByLayer
5
78
100
AcDbLine
10
13086.25
20
9997.715
30
10487.43
11
10006.83
21
9994.274
31
10469.09
39
0
210
0
220
0
230
1
0
LINE
100
AcDbEntity
8
Leica_3DDisto_3D
62
256
6
ByLayer
5
79
100
AcDbLine
10
10006.83
20
9994.274
30
10469.09
11
10000
21
10000
31
10000
39
0
210
0
220
0
230
1
0
LINE
100
AcDbEntity
8
Leica_3DDisto_3D
62
256
6
ByLayer
5
7a
100
AcDbLine
10
10000
20
10000
30
10000
11
9998.582
21
10034.08
31
9996.748
39
0
210
0
220
0
230
1
0
LINE
100
AcDbEntity
8
Leica_3DDisto_3D
62
256
6
ByLayer
5
7b
100
AcDbLine
10
9998.582
20
10034.08
30
9996.748
11
10347.04
21
10034.47
31
9994.789
39
0
210
0
220
0
230
1
0
LINE
100
AcDbEntity
8
Leica_3DDisto_3D
62
256
6
ByLayer
5
7c
100
AcDbLine
10
10347.04
20
10034.47
30
9994.789
11
10192.94
21
10036.3
31
9856.302
39
0
210
0
220
0
230
1
0
LINE
100
AcDbEntity
8
Leica_3DDisto_3D
62
256
6
ByLayer
5
7d
100
AcDbLine
10
10192.94
20
10036.3
30
9856.302
11
10000.51
21
10034.89
31
9852.359
39
0
210
0
220
0
230
1
0
LINE
100
AcDbEntity
8
Leica_3DDisto_3D
62
256
6
ByLayer
5
7e
100
AcDbLine
10
10000.51
20
10034.89
30
9852.359
11
9998.582
21
10034.08
31
9996.748
39
0
210
0
220
0
230
1
0
LINE
100
AcDbEntity
8
Leica_3DDisto_3D
62
256
6
ByLayer
5
7f
100
AcDbLine
10
10000.51
20
10034.89
30
9852.359
11
10009.93
21
10063.38
31
9850.397
39
0
210
0
220
0
230
1
0
LINE
100
AcDbEntity
8
Leica_3DDisto_3D
62
256
6
ByLayer
5
80
100
AcDbLine
10
10009.93
20
10063.38
30
9850.397
11
10009.61
21
10063.69
31
9850.64
39
0
210
0
220
0
230
1
0
LINE
100
AcDbEntity
8
Leica_3DDisto_3D
62
256
6
ByLayer
5
81
100
AcDbLine
10
10009.61
20
10063.69
30
9850.64
11
10165.89
21
10071.47
31
9854.843
39
0
210
0
220
0
230
1
0
LINE
100
AcDbEntity
8
Leica_3DDisto_3D
62
256
6
ByLayer
5
82
100
AcDbLine
10
10165.89
20
10071.47
30
9854.843
11
10163.54
21
10215.36
31
9850.324
39
0
210
0
220
0
230
1
0
LINE
100
AcDbEntity
8
Leica_3DDisto_3D
62
256
6
ByLayer
5
83
100
AcDbLine
10
10192.94
20
10036.3
30
9856.302
11
10200.52
21
10242.21
31
9854.335
39
0
210
0
220
0
230
1
0
LINE
100
AcDbEntity
8
Leica_3DDisto_3D
62
256
6
ByLayer
5
84
100
AcDbLine
10
10200.52
20
10242.21
30
9854.335
11
10347.09
21
10243.72
31
9994.422
39
0
210
0
220
0
230
1
0
LINE
100
AcDbEntity
8
Leica_3DDisto_3D
62
256
6
ByLayer
5
85
100
AcDbLine
10
10347.09
20
10243.72
30
9994.422
11
10347.04
21
10034.47
31
9994.789
39
0
210
0
220
0
230
1
0
LINE
100
AcDbEntity
8
Leica_3DDisto_3D
62
256
6
ByLayer
5
86
100
AcDbLine
10
10320.03
20
10278.05
30
9996.556
11
11238.71
21
10277.7
31
9994.204
39
0
210
0
220
0
230
1
0
LINE
100
AcDbEntity
8
Leica_3DDisto_3D
62
256
6
ByLayer
5
87
100
AcDbLine
10
11238.71
20
10277.7
30
9994.204
11
11238.5
21
11474.36
31
9995.237
39
0
210
0
220
0
230
1
0
LINE
100
AcDbEntity
8
Leica_3DDisto_3D
62
256
6
ByLayer
5
88
100
AcDbLine
10
11238.5
20
11474.36
30
9995.237
11
9590.881
21
11468.38
31
10000.96
39
0
210
0
220
0
230
1
0
LINE
100
AcDbEntity
8
Leica_3DDisto_3D
62
256
6
ByLayer
5
89
100
AcDbLine
10
9504.558
20
11721.72
30
9996.161
11
13086.47
21
11727.86
31
9993.276
39
0
210
0
220
0
230
1
0
LINE
100
AcDbEntity
8
Leica_3DDisto_3D
62
256
6
ByLayer
5
8a
100
AcDbLine
10
13086.47
20
11727.86
30
9993.276
11
13083.07
21
10308
31
9996.505
39
0
210
0
220
0
230
1
0
LINE
100
AcDbEntity
8
Leica_3DDisto_3D
62
256
6
ByLayer
5
8b
100
AcDbLine
10
13083.07
20
10308
30
9996.505
11
11519.71
21
10288.86
31
9997.039
39
0
210
0
220
0
230
1
0
LINE
100
AcDbEntity
8
Leica_3DDisto_3D
62
256
6
ByLayer
5
8c
100
AcDbLine
10
11519.71
20
10288.86
30
9997.039
11
11521.61
21
11723.91
31
9994.333
39
0
210
0
220
0
230
1
0
LINE
100
AcDbEntity
8
Leica_3DDisto_3D
62
256
6
ByLayer
5
8d
100
AcDbLine
10
11521.61
20
11723.91
30
9994.333
11
10177.01
21
11725.18
31
9993.979
39
0
210
0
220
0
230
1
0
LINE
100
AcDbEntity
8
Leica_3DDisto_3D
62
256
6
ByLayer
5
8e
100
AcDbLine
10
10177.01
20
11725.18
30
9993.979
11
10194.03
21
11493.48
31
9997.991
39
0
210
0
220
0
230
1
0
LINE
100
AcDbEntity
8
Leica_3DDisto_3D
62
256
6
ByLayer
5
8f
100
AcDbLine
10
10194.03
20
11493.48
30
9997.991
11
9883.802
21
11495.9
31
9995.871
39
0
210
0
220
0
230
1
0
LINE
100
AcDbEntity
8
Leica_3DDisto_3D
62
256
6
ByLayer
5
90
100
AcDbLine
10
9883.802
20
11495.9
30
9995.871
11
9981.388
21
11505.4
31
9862.225
39
0
210
0
220
0
230
1
0
LINE
100
AcDbEntity
8
Leica_3DDisto_3D
62
256
6
ByLayer
5
91
100
AcDbLine
10
9981.388
20
11505.4
30
9862.225
11
10190.13
21
11518.13
31
9860.297
39
0
210
0
220
0
230
1
0
LINE
100
AcDbEntity
8
Leica_3DDisto_3D
62
256
6
ByLayer
5
92
100
AcDbLine
10
10190.13
20
11518.13
30
9860.297
11
10174.46
21
11719.28
31
9864.144
39
0
210
0
220
0
230
1
0
LINE
100
AcDbEntity
8
Leica_3DDisto_3D
62
256
6
ByLayer
5
93
100
AcDbLine
10
10174.46
20
11719.28
30
9864.144
11
10145.39
21
11718.42
31
9861.573
39
0
210
0
220
0
230
1
0
LINE
100
AcDbEntity
8
Leica_3DDisto_3D
62
256
6
ByLayer
5
94
100
AcDbLine
10
10145.39
20
11718.42
30
9861.573
11
10162.75
21
11541.44
31
9855.261
39
0
210
0
220
0
230
1
0
LINE
100
AcDbEntity
8
Leica_3DDisto_3D
62
256
6
ByLayer
5
95
100
AcDbLine
10
10162.75
20
11541.44
30
9855.261
11
10002.36
21
11544.07
31
9860.142
39
0
210
0
220
0
230
1
0
LINE
100
AcDbEntity
8
Leica_3DDisto_3D
62
256
6
ByLayer
5
96
100
AcDbLine
10
10002.36
20
11544.07
30
9860.142
11
9983.029
21
11566.06
31
8421.465
39
0
210
0
220
0
230
1
0
LINE
100
AcDbEntity
8
Leica_3DDisto_3D
62
256
6
ByLayer
5
97
100
AcDbLine
10
9983.029
20
11566.06
30
8421.465
11
9982.187
21
11567.53
31
8421.469
39
0
210
0
220
0
230
1
0
LINE
100
AcDbEntity
8
Leica_3DDisto_3D
62
256
6
ByLayer
5
98
100
AcDbLine
10
9982.187
20
11567.53
30
8421.469
11
10157.49
21
11543.3
31
8348.445
39
0
210
0
220
0
230
1
0
LINE
100
AcDbEntity
8
Leica_3DDisto_3D
62
256
6
ByLayer
5
99
100
AcDbLine
10
10161.24
20
10219.37
30
8338.008
11
10161.62
21
10190.52
31
8335.806
39
0
210
0
220
0
230
1
0
LINE
100
AcDbEntity
8
Leica_3DDisto_3D
62
256
6
ByLayer
5
9a
100
AcDbLine
10
10161.62
20
10190.52
30
8335.806
11
10157.92
21
10187.93
31
7988.116
39
0
210
0
220
0
230
1
0
LINE
100
AcDbEntity
8
Leica_3DDisto_3D
62
256
6
ByLayer
5
9b
100
AcDbLine
10
10157.92
20
10187.93
30
7988.116
11
10893.55
21
10202.04
31
7619.734
39
0
210
0
220
0
230
1
0
LINE
100
AcDbEntity
8
Leica_3DDisto_3D
62
256
6
ByLayer
5
9c
100
AcDbLine
10
10893.55
20
10202.04
30
7619.734
11
11586.47
21
10204.47
31
7621.22
39
0
210
0
220
0
230
1
0
LINE
100
AcDbEntity
8
Leica_3DDisto_3D
62
256
6
ByLayer
5
9d
100
AcDbLine
10
11586.47
20
10204.47
30
7621.22
11
11583.7
21
10214.99
31
7635.999
39
0
210
0
220
0
230
1
0
LINE
100
AcDbEntity
8
Leica_3DDisto_3D
62
256
6
ByLayer
5
9e
100
AcDbLine
10
11596.63
20
10301.62
30
7617.639
11
11586.53
21
10303.69
31
7642.636
39
0
210
0
220
0
230
1
0
LINE
100
AcDbEntity
8
Leica_3DDisto_3D
62
256
6
ByLayer
5
9f
100
AcDbLine
10
11586.53
20
10303.69
30
7642.636
11
10128.28
21
10286.69
31
8358.353
39
0
210
0
220
0
230
1
0
LINE
100
AcDbEntity
8
Leica_3DDisto_3D
62
256
6
ByLayer
5
a0
100
AcDbLine
10
13083.44
20
10000
30
10000.94
11
13083.07
21
10308
31
9996.505
39
0
210
0
220
0
230
1
0
LINE
100
AcDbEntity
8
Leica_3DDisto_3D
62
256
6
ByLayer
5
a1
100
AcDbLine
10
11586.47
20
10204.47
30
7621.22
11
11596.63
21
10301.62
31
7617.639
39
0
210
0
220
0
230
1
0
LINE
100
AcDbEntity
8
Leica_3DDisto_3D
62
256
6
ByLayer
5
a2
100
AcDbLine
10
11586.53
20
10303.69
30
7642.636
11
11583.7
21
10214.99
31
7635.999
39
0
210
0
220
0
230
1
0
LINE
100
AcDbEntity
8
Leica_3DDisto_3D
62
256
6
ByLayer
5
a3
100
AcDbLine
10
11583.7
20
10214.99
30
7635.999
11
10161.62
21
10190.52
31
8335.806
39
0
210
0
220
0
230
1
0
LINE
100
AcDbEntity
8
Leica_3DDisto_3D
62
256
6
ByLayer
5
a4
100
AcDbLine
10
10157.49
20
11543.3
30
8348.445
11
10162.75
21
11541.44
31
9855.261
39
0
210
0
220
0
230
1
0
LINE
100
AcDbEntity
8
Leica_3DDisto_3D
62
256
6
ByLayer
5
a5
100
AcDbLine
10
10190.13
20
11518.13
30
9860.297
11
10194.03
21
11493.48
31
9997.991
39
0
210
0
220
0
230
1
0
LINE
100
AcDbEntity
8
Leica_3DDisto_3D
62
256
6
ByLayer
5
a6
100
AcDbLine
10
10174.46
20
11719.28
30
9864.144
11
10177.01
21
11725.18
31
9993.979
39
0
210
0
220
0
230
1
0
LINE
100
AcDbEntity
8
Leica_3DDisto_3D
62
256
6
ByLayer
5
a7
100
AcDbLine
10
10137.34
20
11722.32
30
8348.252
11
10154.79
21
11572.15
31
8348.889
39
0
210
0
220
0
230
1
0
LINE
100
AcDbEntity
8
Leica_3DDisto_3D
62
256
6
ByLayer
5
a8
100
AcDbLine
10
10154.79
20
11572.15
30
8348.889
11
11601.47
21
11594.04
31
7616.352
39
0
210
0
220
0
230
1
0
LINE
100
AcDbEntity
8
Leica_3DDisto_3D
62
256
6
ByLayer
5
a9
100
AcDbLine
10
11601.47
20
11594.04
30
7616.352
11
11602.84
21
11488.77
31
7616.501
39
0
210
0
220
0
230
1
0
LINE
100
AcDbEntity
8
Leica_3DDisto_3D
62
256
6
ByLayer
5
aa
100
AcDbLine
10
11602.84
20
11488.77
30
7616.501
11
9905.052
21
11473.58
31
8466.618
39
0
210
0
220
0
230
1
0
LINE
100
AcDbEntity
8
Leica_3DDisto_3D
62
256
6
ByLayer
5
ab
100
AcDbLine
10
7858.808
20
11680.94
30
7614.747
11
7834.465
21
11555.24
31
7621.84
39
0
210
0
220
0
230
1
0
LINE
100
AcDbEntity
8
Leica_3DDisto_3D
62
256
6
ByLayer
5
ac
100
AcDbLine
10
7834.465
20
11555.24
30
7621.84
11
7766.074
21
11546.04
31
7617.935
39
0
210
0
220
0
230
1
0
LINE
100
AcDbEntity
8
Leica_3DDisto_3D
62
256
6
ByLayer
5
ad
100
AcDbLine
10
7766.074
20
11546.04
30
7617.935
11
7789.597
21
11518.34
31
9996.746
39
0
210
0
220
0
230
1
0
LINE
100
AcDbEntity
8
Leica_3DDisto_3D
62
256
6
ByLayer
5
ae
100
AcDbLine
10
7789.597
20
11518.34
30
9996.746
11
7832.611
21
11542.12
31
9997.169
39
0
210
0
220
0
230
1
0
LINE
100
AcDbEntity
8
Leica_3DDisto_3D
62
256
6
ByLayer
5
af
100
AcDbLine
10
7832.611
20
11542.12
30
9997.169
11
7832.009
21
11709.33
31
9996.354
39
0
210
0
220
0
230
1
0
LINE
100
AcDbEntity
8
Leica_3DDisto_3D
62
256
6
ByLayer
5
b0
100
AcDbLine
10
7832.009
20
11709.33
30
9996.354
11
7858.808
21
11680.94
31
7614.747
39
0
210
0
220
0
230
1
0
LINE
100
AcDbEntity
8
Leica_3DDisto_3D
62
256
6
ByLayer
5
b1
100
AcDbLine
10
7834.465
20
11555.24
30
7621.84
11
7832.611
21
11542.12
31
9997.169
39
0
210
0
220
0
230
1
0
LINE
100
AcDbEntity
8
Leica_3DDisto_3D
62
256
6
ByLayer
5
b2
100
AcDbLine
10
7832.009
20
11709.33
30
9996.354
11
9504.558
21
11721.72
31
9996.161
39
0
210
0
220
0
230
1
0
LINE
100
AcDbEntity
8
Leica_3DDisto_3D
62
256
6
ByLayer
5
b3
100
AcDbLine
10
9590.881
20
11468.38
30
10000.96
11
7523.863
21
11461.68
31
9997.28
39
0
210
0
220
0
230
1
0
LINE
100
AcDbEntity
8
Leica_3DDisto_3D
62
256
6
ByLayer
5
b4
100
AcDbLine
10
7858.808
20
11680.94
30
7614.747
11
13069.37
21
11713.4
31
7627.573
39
0
210
0
220
0
230
1
0
LINE
100
AcDbEntity
8
Leica_3DDisto_3D
62
256
6
ByLayer
5
b5
100
AcDbLine
10
13069.37
20
11713.4
30
7627.573
11
13067.64
21
9992.263
31
7619.265
39
0
210
0
220
0
230
1
0
LINE
100
AcDbEntity
8
Leica_3DDisto_3D
62
256
6
ByLayer
5
b6
100
AcDbLine
10
10009.93
20
10063.38
30
9850.397
11
10008.65
21
10073.98
31
7624.19
39
0
210
0
220
0
230
1
0
LINE
100
AcDbEntity
8
Leica_3DDisto_3D
62
256
6
ByLayer
5
b7
100
AcDbLine
10
10008.65
20
10073.98
30
7624.19
11
10158.97
21
10076.52
31
7620.631
39
0
210
0
220
0
230
1
0
LINE
100
AcDbEntity
8
Leica_3DDisto_3D
62
256
6
ByLayer
5
b8
100
AcDbLine
10
10158.97
20
10076.52
30
7620.631
11
10157.17
21
10226.73
31
7621.88
39
0
210
0
220
0
230
1
0
LINE
100
AcDbEntity
8
Leica_3DDisto_3D
62
256
6
ByLayer
5
b9
100
AcDbLine
10
13069.37
20
11713.4
30
7627.573
11
13086.47
21
11727.86
31
9993.276
39
0
210
0
220
0
230
1
0
LINE
100
AcDbEntity
8
Leica_3DDisto_3D
62
256
6
ByLayer
5
ba
100
AcDbLine
10
10157.17
20
10226.73
30
7621.88
11
10163.54
21
10215.36
31
9850.324
39
0
210
0
220
0
230
1
0
LINE
100
AcDbEntity
8
Leica_3DDisto_3D
62
256
6
ByLayer
5
bb
100
AcDbLine
10
10158.97
20
10076.52
30
7620.631
11
10165.89
21
10071.47
31
9854.843
39
0
210
0
220
0
230
1
0
LINE
100
AcDbEntity
8
Leica_3DDisto_3D
62
256
6
ByLayer
5
bc
100
AcDbLine
10
10157.49
20
11543.3
30
8348.445
11
10154.79
21
11572.15
31
8348.889
39
0
210
0
220
0
230
1
0
LINE
100
AcDbEntity
8
Leica_3DDisto_3D
62
256
6
ByLayer
5
bd
100
AcDbLine
10
10137.34
20
11722.32
30
8348.252
11
10145.39
21
11718.42
31
9861.573
39
0
210
0
220
0
230
1
0
TEXT
100
AcDbEntity
8
Leica_3DDisto_ID
62
256
6
ByLayer
5
fb
100
AcDbText
1
1
10
10000
20
10000
30
10000
40
100
41
1
50
0
51
0
7
Standard
11
10000
21
10000
31
10000
210
0
220
0
230
1
72
0
100
AcDbText
73
0
0
TEXT
100
AcDbEntity
8
Leica_3DDisto_ID
62
256
6
ByLayer
5
fc
100
AcDbText
1
2
10
13083.44
20
10000
30
10000.94
40
100
41
1
50
0
51
0
7
Standard
11
13083.44
21
10000
31
10000.94
210
0
220
0
230
1
72
0
100
AcDbText
73
0
0
TEXT
100
AcDbEntity
8
Leica_3DDisto_ID
62
256
6
ByLayer
5
fd
100
AcDbText
1
3
10
13086.25
20
9997.715
30
10487.43
40
100
41
1
50
0
51
0
7
Standard
11
13086.25
21
9997.715
31
10487.43
210
0
220
0
230
1
72
0
100
AcDbText
73
0
0
TEXT
100
AcDbEntity
8
Leica_3DDisto_ID
62
256
6
ByLayer
5
fe
100
AcDbText
1
4
10
10006.83
20
9994.274
30
10469.09
40
100
41
1
50
0
51
0
7
Standard
11
10006.83
21
9994.274
31
10469.09
210
0
220
0
230
1
72
0
100
AcDbText
73
0
0
TEXT
100
AcDbEntity
8
Leica_3DDisto_ID
62
256
6
ByLayer
5
ff
100
AcDbText
1
5
10
9998.582
20
10034.08
30
9996.748
40
100
41
1
50
0
51
0
7
Standard
11
9998.582
21
10034.08
31
9996.748
210
0
220
0
230
1
72
0
100
AcDbText
73
0
0
TEXT
100
AcDbEntity
8
Leica_3DDisto_ID
62
256
6
ByLayer
5
100
100
AcDbText
1
6
10
10347.04
20
10034.47
30
9994.789
40
100
41
1
50
0
51
0
7
Standard
11
10347.04
21
10034.47
31
9994.789
210
0
220
0
230
1
72
0
100
AcDbText
73
0
0
TEXT
100
AcDbEntity
8
Leica_3DDisto_ID
62
256
6
ByLayer
5
101
100
AcDbText
1
7
10
10192.94
20
10036.3
30
9856.302
40
100
41
1
50
0
51
0
7
Standard
11
10192.94
21
10036.3
31
9856.302
210
0
220
0
230
1
72
0
100
AcDbText
73
0
0
TEXT
100
AcDbEntity
8
Leica_3DDisto_ID
62
256
6
ByLayer
5
102
100
AcDbText
1
8
10
10000.51
20
10034.89
30
9852.359
40
100
41
1
50
0
51
0
7
Standard
11
10000.51
21
10034.89
31
9852.359
210
0
220
0
230
1
72
0
100
AcDbText
73
0
0
TEXT
100
AcDbEntity
8
Leica_3DDisto_ID
62
256
6
ByLayer
5
103
100
AcDbText
1
9
10
10009.93
20
10063.38
30
9850.397
40
100
41
1
50
0
51
0
7
Standard
11
10009.93
21
10063.38
31
9850.397
210
0
220
0
230
1
72
0
100
AcDbText
73
0
0
TEXT
100
AcDbEntity
8
Leica_3DDisto_ID
62
256
6
ByLayer
5
104
100
AcDbText
1
10
10
10009.61
20
10063.69
30
9850.64
40
100
41
1
50
0
51
0
7
Standard
11
10009.61
21
10063.69
31
9850.64
210
0
220
0
230
1
72
0
100
AcDbText
73
0
0
TEXT
100
AcDbEntity
8
Leica_3DDisto_ID
62
256
6
ByLayer
5
105
100
AcDbText
1
11
10
10165.89
20
10071.47
30
9854.843
40
100
41
1
50
0
51
0
7
Standard
11
10165.89
21
10071.47
31
9854.843
210
0
220
0
230
1
72
0
100
AcDbText
73
0
0
TEXT
100
AcDbEntity
8
Leica_3DDisto_ID
62
256
6
ByLayer
5
106
100
AcDbText
1
12
10
10163.54
20
10215.36
30
9850.324
40
100
41
1
50
0
51
0
7
Standard
11
10163.54
21
10215.36
31
9850.324
210
0
220
0
230
1
72
0
100
AcDbText
73
0
0
TEXT
100
AcDbEntity
8
Leica_3DDisto_ID
62
256
6
ByLayer
5
107
100
AcDbText
1
13
10
10200.52
20
10242.21
30
9854.335
40
100
41
1
50
0
51
0
7
Standard
11
10200.52
21
10242.21
31
9854.335
210
0
220
0
230
1
72
0
100
AcDbText
73
0
0
TEXT
100
AcDbEntity
8
Leica_3DDisto_ID
62
256
6
ByLayer
5
108
100
AcDbText
1
14
10
10347.09
20
10243.72
30
9994.422
40
100
41
1
50
0
51
0
7
Standard
11
10347.09
21
10243.72
31
9994.422
210
0
220
0
230
1
72
0
100
AcDbText
73
0
0
TEXT
100
AcDbEntity
8
Leica_3DDisto_ID
62
256
6
ByLayer
5
109
100
AcDbText
1
15
10
10320.03
20
10278.05
30
9996.556
40
100
41
1
50
0
51
0
7
Standard
11
10320.03
21
10278.05
31
9996.556
210
0
220
0
230
1
72
0
100
AcDbText
73
0
0
TEXT
100
AcDbEntity
8
Leica_3DDisto_ID
62
256
6
ByLayer
5
10a
100
AcDbText
1
16
10
11238.71
20
10277.7
30
9994.204
40
100
41
1
50
0
51
0
7
Standard
11
11238.71
21
10277.7
31
9994.204
210
0
220
0
230
1
72
0
100
AcDbText
73
0
0
TEXT
100
AcDbEntity
8
Leica_3DDisto_ID
62
256
6
ByLayer
5
10b
100
AcDbText
1
17
10
11238.5
20
11474.36
30
9995.237
40
100
41
1
50
0
51
0
7
Standard
11
11238.5
21
11474.36
31
9995.237
210
0
220
0
230
1
72
0
100
AcDbText
73
0
0
TEXT
100
AcDbEntity
8
Leica_3DDisto_ID
62
256
6
ByLayer
5
10c
100
AcDbText
1
18
10
9590.881
20
11468.38
30
10000.96
40
100
41
1
50
0
51
0
7
Standard
11
9590.881
21
11468.38
31
10000.96
210
0
220
0
230
1
72
0
100
AcDbText
73
0
0
TEXT
100
AcDbEntity
8
Leica_3DDisto_ID
62
256
6
ByLayer
5
10d
100
AcDbText
1
19
10
9504.558
20
11721.72
30
9996.161
40
100
41
1
50
0
51
0
7
Standard
11
9504.558
21
11721.72
31
9996.161
210
0
220
0
230
1
72
0
100
AcDbText
73
0
0
TEXT
100
AcDbEntity
8
Leica_3DDisto_ID
62
256
6
ByLayer
5
10e
100
AcDbText
1
20
10
13086.47
20
11727.86
30
9993.276
40
100
41
1
50
0
51
0
7
Standard
11
13086.47
21
11727.86
31
9993.276
210
0
220
0
230
1
72
0
100
AcDbText
73
0
0
TEXT
100
AcDbEntity
8
Leica_3DDisto_ID
62
256
6
ByLayer
5
10f
100
AcDbText
1
21
10
13083.07
20
10308
30
9996.505
40
100
41
1
50
0
51
0
7
Standard
11
13083.07
21
10308
31
9996.505
210
0
220
0
230
1
72
0
100
AcDbText
73
0
0
TEXT
100
AcDbEntity
8
Leica_3DDisto_ID
62
256
6
ByLayer
5
110
100
AcDbText
1
22
10
11519.71
20
10288.86
30
9997.039
40
100
41
1
50
0
51
0
7
Standard
11
11519.71
21
10288.86
31
9997.039
210
0
220
0
230
1
72
0
100
AcDbText
73
0
0
TEXT
100
AcDbEntity
8
Leica_3DDisto_ID
62
256
6
ByLayer
5
111
100
AcDbText
1
23
10
11521.61
20
11723.91
30
9994.333
40
100
41
1
50
0
51
0
7
Standard
11
11521.61
21
11723.91
31
9994.333
210
0
220
0
230
1
72
0
100
AcDbText
73
0
0
TEXT
100
AcDbEntity
8
Leica_3DDisto_ID
62
256
6
ByLayer
5
112
100
AcDbText
1
24
10
10177.01
20
11725.18
30
9993.979
40
100
41
1
50
0
51
0
7
Standard
11
10177.01
21
11725.18
31
9993.979
210
0
220
0
230
1
72
0
100
AcDbText
73
0
0
TEXT
100
AcDbEntity
8
Leica_3DDisto_ID
62
256
6
ByLayer
5
113
100
AcDbText
1
25
10
10194.03
20
11493.48
30
9997.991
40
100
41
1
50
0
51
0
7
Standard
11
10194.03
21
11493.48
31
9997.991
210
0
220
0
230
1
72
0
100
AcDbText
73
0
0
TEXT
100
AcDbEntity
8
Leica_3DDisto_ID
62
256
6
ByLayer
5
114
100
AcDbText
1
26
10
9883.802
20
11495.9
30
9995.871
40
100
41
1
50
0
51
0
7
Standard
11
9883.802
21
11495.9
31
9995.871
210
0
220
0
230
1
72
0
100
AcDbText
73
0
0
TEXT
100
AcDbEntity
8
Leica_3DDisto_ID
62
256
6
ByLayer
5
115
100
AcDbText
1
27
10
9981.388
20
11505.4
30
9862.225
40
100
41
1
50
0
51
0
7
Standard
11
9981.388
21
11505.4
31
9862.225
210
0
220
0
230
1
72
0
100
AcDbText
73
0
0
TEXT
100
AcDbEntity
8
Leica_3DDisto_ID
62
256
6
ByLayer
5
116
100
AcDbText
1
28
10
10190.13
20
11518.13
30
9860.297
40
100
41
1
50
0
51
0
7
Standard
11
10190.13
21
11518.13
31
9860.297
210
0
220
0
230
1
72
0
100
AcDbText
73
0
0
TEXT
100
AcDbEntity
8
Leica_3DDisto_ID
62
256
6
ByLayer
5
117
100
AcDbText
1
29
10
10174.46
20
11719.28
30
9864.144
40
100
41
1
50
0
51
0
7
Standard
11
10174.46
21
11719.28
31
9864.144
210
0
220
0
230
1
72
0
100
AcDbText
73
0
0
TEXT
100
AcDbEntity
8
Leica_3DDisto_ID
62
256
6
ByLayer
5
118
100
AcDbText
1
30
10
10145.39
20
11718.42
30
9861.573
40
100
41
1
50
0
51
0
7
Standard
11
10145.39
21
11718.42
31
9861.573
210
0
220
0
230
1
72
0
100
AcDbText
73
0
0
TEXT
100
AcDbEntity
8
Leica_3DDisto_ID
62
256
6
ByLayer
5
119
100
AcDbText
1
31
10
10162.75
20
11541.44
30
9855.261
40
100
41
1
50
0
51
0
7
Standard
11
10162.75
21
11541.44
31
9855.261
210
0
220
0
230
1
72
0
100
AcDbText
73
0
0
TEXT
100
AcDbEntity
8
Leica_3DDisto_ID
62
256
6
ByLayer
5
11a
100
AcDbText
1
32
10
10002.36
20
11544.07
30
9860.142
40
100
41
1
50
0
51
0
7
Standard
11
10002.36
21
11544.07
31
9860.142
210
0
220
0
230
1
72
0
100
AcDbText
73
0
0
TEXT
100
AcDbEntity
8
Leica_3DDisto_ID
62
256
6
ByLayer
5
11b
100
AcDbText
1
33
10
9983.029
20
11566.06
30
8421.465
40
100
41
1
50
0
51
0
7
Standard
11
9983.029
21
11566.06
31
8421.465
210
0
220
0
230
1
72
0
100
AcDbText
73
0
0
TEXT
100
AcDbEntity
8
Leica_3DDisto_ID
62
256
6
ByLayer
5
11c
100
AcDbText
1
34
10
9982.187
20
11567.53
30
8421.469
40
100
41
1
50
0
51
0
7
Standard
11
9982.187
21
11567.53
31
8421.469
210
0
220
0
230
1
72
0
100
AcDbText
73
0
0
TEXT
100
AcDbEntity
8
Leica_3DDisto_ID
62
256
6
ByLayer
5
11d
100
AcDbText
1
35
10
10157.49
20
11543.3
30
8348.445
40
100
41
1
50
0
51
0
7
Standard
11
10157.49
21
11543.3
31
8348.445
210
0
220
0
230
1
72
0
100
AcDbText
73
0
0
TEXT
100
AcDbEntity
8
Leica_3DDisto_ID
62
256
6
ByLayer
5
11e
100
AcDbText
1
36
10
10161.24
20
10219.37
30
8338.008
40
100
41
1
50
0
51
0
7
Standard
11
10161.24
21
10219.37
31
8338.008
210
0
220
0
230
1
72
0
100
AcDbText
73
0
0
TEXT
100
AcDbEntity
8
Leica_3DDisto_ID
62
256
6
ByLayer
5
11f
100
AcDbText
1
37
10
10161.62
20
10190.52
30
8335.806
40
100
41
1
50
0
51
0
7
Standard
11
10161.62
21
10190.52
31
8335.806
210
0
220
0
230
1
72
0
100
AcDbText
73
0
0
TEXT
100
AcDbEntity
8
Leica_3DDisto_ID
62
256
6
ByLayer
5
120
100
AcDbText
1
38
10
10157.92
20
10187.93
30
7988.116
40
100
41
1
50
0
51
0
7
Standard
11
10157.92
21
10187.93
31
7988.116
210
0
220
0
230
1
72
0
100
AcDbText
73
0
0
TEXT
100
AcDbEntity
8
Leica_3DDisto_ID
62
256
6
ByLayer
5
121
100
AcDbText
1
39
10
10893.55
20
10202.04
30
7619.734
40
100
41
1
50
0
51
0
7
Standard
11
10893.55
21
10202.04
31
7619.734
210
0
220
0
230
1
72
0
100
AcDbText
73
0
0
TEXT
100
AcDbEntity
8
Leica_3DDisto_ID
62
256
6
ByLayer
5
122
100
AcDbText
1
40
10
11586.47
20
10204.47
30
7621.22
40
100
41
1
50
0
51
0
7
Standard
11
11586.47
21
10204.47
31
7621.22
210
0
220
0
230
1
72
0
100
AcDbText
73
0
0
TEXT
100
AcDbEntity
8
Leica_3DDisto_ID
62
256
6
ByLayer
5
123
100
AcDbText
1
41
10
11583.7
20
10214.99
30
7635.999
40
100
41
1
50
0
51
0
7
Standard
11
11583.7
21
10214.99
31
7635.999
210
0
220
0
230
1
72
0
100
AcDbText
73
0
0
TEXT
100
AcDbEntity
8
Leica_3DDisto_ID
62
256
6
ByLayer
5
124
100
AcDbText
1
42
10
11596.63
20
10301.62
30
7617.639
40
100
41
1
50
0
51
0
7
Standard
11
11596.63
21
10301.62
31
7617.639
210
0
220
0
230
1
72
0
100
AcDbText
73
0
0
TEXT
100
AcDbEntity
8
Leica_3DDisto_ID
62
256
6
ByLayer
5
125
100
AcDbText
1
43
10
11586.53
20
10303.69
30
7642.636
40
100
41
1
50
0
51
0
7
Standard
11
11586.53
21
10303.69
31
7642.636
210
0
220
0
230
1
72
0
100
AcDbText
73
0
0
TEXT
100
AcDbEntity
8
Leica_3DDisto_ID
62
256
6
ByLayer
5
126
100
AcDbText
1
44
10
10128.28
20
10286.69
30
8358.353
40
100
41
1
50
0
51
0
7
Standard
11
10128.28
21
10286.69
31
8358.353
210
0
220
0
230
1
72
0
100
AcDbText
73
0
0
TEXT
100
AcDbEntity
8
Leica_3DDisto_ID
62
256
6
ByLayer
5
127
100
AcDbText
1
45
10
10137.34
20
11722.32
30
8348.252
40
100
41
1
50
0
51
0
7
Standard
11
10137.34
21
11722.32
31
8348.252
210
0
220
0
230
1
72
0
100
AcDbText
73
0
0
TEXT
100
AcDbEntity
8
Leica_3DDisto_ID
62
256
6
ByLayer
5
128
100
AcDbText
1
46
10
10154.79
20
11572.15
30
8348.889
40
100
41
1
50
0
51
0
7
Standard
11
10154.79
21
11572.15
31
8348.889
210
0
220
0
230
1
72
0
100
AcDbText
73
0
0
TEXT
100
AcDbEntity
8
Leica_3DDisto_ID
62
256
6
ByLayer
5
129
100
AcDbText
1
47
10
11601.47
20
11594.04
30
7616.352
40
100
41
1
50
0
51
0
7
Standard
11
11601.47
21
11594.04
31
7616.352
210
0
220
0
230
1
72
0
100
AcDbText
73
0
0
TEXT
100
AcDbEntity
8
Leica_3DDisto_ID
62
256
6
ByLayer
5
12a
100
AcDbText
1
48
10
11602.84
20
11488.77
30
7616.501
40
100
41
1
50
0
51
0
7
Standard
11
11602.84
21
11488.77
31
7616.501
210
0
220
0
230
1
72
0
100
AcDbText
73
0
0
TEXT
100
AcDbEntity
8
Leica_3DDisto_ID
62
256
6
ByLayer
5
12b
100
AcDbText
1
49
10
9905.052
20
11473.58
30
8466.618
40
100
41
1
50
0
51
0
7
Standard
11
9905.052
21
11473.58
31
8466.618
210
0
220
0
230
1
72
0
100
AcDbText
73
0
0
TEXT
100
AcDbEntity
8
Leica_3DDisto_ID
62
256
6
ByLayer
5
12c
100
AcDbText
1
50
10
7858.808
20
11680.94
30
7614.747
40
100
41
1
50
0
51
0
7
Standard
11
7858.808
21
11680.94
31
7614.747
210
0
220
0
230
1
72
0
100
AcDbText
73
0
0
TEXT
100
AcDbEntity
8
Leica_3DDisto_ID
62
256
6
ByLayer
5
12d
100
AcDbText
1
51
10
7834.465
20
11555.24
30
7621.84
40
100
41
1
50
0
51
0
7
Standard
11
7834.465
21
11555.24
31
7621.84
210
0
220
0
230
1
72
0
100
AcDbText
73
0
0
TEXT
100
AcDbEntity
8
Leica_3DDisto_ID
62
256
6
ByLayer
5
12e
100
AcDbText
1
52
10
7766.074
20
11546.04
30
7617.935
40
100
41
1
50
0
51
0
7
Standard
11
7766.074
21
11546.04
31
7617.935
210
0
220
0
230
1
72
0
100
AcDbText
73
0
0
TEXT
100
AcDbEntity
8
Leica_3DDisto_ID
62
256
6
ByLayer
5
12f
100
AcDbText
1
53
10
7789.597
20
11518.34
30
9996.746
40
100
41
1
50
0
51
0
7
Standard
11
7789.597
21
11518.34
31
9996.746
210
0
220
0
230
1
72
0
100
AcDbText
73
0
0
TEXT
100
AcDbEntity
8
Leica_3DDisto_ID
62
256
6
ByLayer
5
130
100
AcDbText
1
54
10
7832.611
20
11542.12
30
9997.169
40
100
41
1
50
0
51
0
7
Standard
11
7832.611
21
11542.12
31
9997.169
210
0
220
0
230
1
72
0
100
AcDbText
73
0
0
TEXT
100
AcDbEntity
8
Leica_3DDisto_ID
62
256
6
ByLayer
5
131
100
AcDbText
1
55
10
7832.009
20
11709.33
30
9996.354
40
100
41
1
50
0
51
0
7
Standard
11
7832.009
21
11709.33
31
9996.354
210
0
220
0
230
1
72
0
100
AcDbText
73
0
0
TEXT
100
AcDbEntity
8
Leica_3DDisto_ID
62
256
6
ByLayer
5
132
100
AcDbText
1
56
10
7523.863
20
11461.68
30
9997.28
40
100
41
1
50
0
51
0
7
Standard
11
7523.863
21
11461.68
31
9997.28
210
0
220
0
230
1
72
0
100
AcDbText
73
0
0
TEXT
100
AcDbEntity
8
Leica_3DDisto_ID
62
256
6
ByLayer
5
133
100
AcDbText
1
57
10
13069.37
20
11713.4
30
7627.573
40
100
41
1
50
0
51
0
7
Standard
11
13069.37
21
11713.4
31
7627.573
210
0
220
0
230
1
72
0
100
AcDbText
73
0
0
TEXT
100
AcDbEntity
8
Leica_3DDisto_ID
62
256
6
ByLayer
5
134
100
AcDbText
1
58
10
13067.64
20
9992.263
30
7619.265
40
100
41
1
50
0
51
0
7
Standard
11
13067.64
21
9992.263
31
7619.265
210
0
220
0
230
1
72
0
100
AcDbText
73
0
0
TEXT
100
AcDbEntity
8
Leica_3DDisto_ID
62
256
6
ByLayer
5
135
100
AcDbText
1
59
10
10008.65
20
10073.98
30
7624.19
40
100
41
1
50
0
51
0
7
Standard
11
10008.65
21
10073.98
31
7624.19
210
0
220
0
230
1
72
0
100
AcDbText
73
0
0
TEXT
100
AcDbEntity
8
Leica_3DDisto_ID
62
256
6
ByLayer
5
136
100
AcDbText
1
60
10
10158.97
20
10076.52
30
7620.631
40
100
41
1
50
0
51
0
7
Standard
11
10158.97
21
10076.52
31
7620.631
210
0
220
0
230
1
72
0
100
AcDbText
73
0
0
TEXT
100
AcDbEntity
8
Leica_3DDisto_ID
62
256
6
ByLayer
5
137
100
AcDbText
1
61
10
10157.17
20
10226.73
30
7621.88
40
100
41
1
50
0
51
0
7
Standard
11
10157.17
21
10226.73
31
7621.88
210
0
220
0
230
1
72
0
100
AcDbText
73
0
0
ENDSEC
0
EOF
